ISO-10303-21;
HEADER;
FILE_DESCRIPTION (( 'STEP AP214' ),
    '1' );
FILE_NAME ('Flachdichtung VD69_60_6300189.STEP',
    '2012-08-23T11:29:12',
    ( 'Admin2' ),
    ( '' ),
    'SwSTEP 2.0',
    'SolidWorks 2010',
    '' );
FILE_SCHEMA (( 'AUTOMOTIVE_DESIGN' ));
ENDSEC;

DATA;
#1 = UNCERTAINTY_MEASURE_WITH_UNIT (LENGTH_MEASURE( 1.000000000000000100E-005 ), #133, 'distance_accuracy_value', 'NONE');
#2 = ADVANCED_BREP_SHAPE_REPRESENTATION ( 'Flachdichtung VD69_60_6300189', ( #3, #107 ), #46 ) ;
#3 = MANIFOLD_SOLID_BREP ( 'Aufsatz-Linear austragen1', #55 ) ;
#4 = UNCERTAINTY_MEASURE_WITH_UNIT (LENGTH_MEASURE( 1.000000000000000100E-005 ), #175, 'distance_accuracy_value', 'NONE');
#5 = UNCERTAINTY_MEASURE_WITH_UNIT (LENGTH_MEASURE( 1.000000000000000100E-005 ), #140, 'distance_accuracy_value', 'NONE');
#6 = ORIENTED_EDGE ( 'NONE', *, *, #93, .T. ) ;
#7 = LINE ( 'NONE', #157, #63 ) ;
#8 = CIRCLE ( 'NONE', #114, 34.49999999999999300 ) ;
#9 = ORIENTED_EDGE ( 'NONE', *, *, #89, .F. ) ;
#10 = ORIENTED_EDGE ( 'NONE', *, *, #111, .T. ) ;
#11 = CIRCLE ( 'NONE', #103, 34.49999999999999300 ) ;
#12 = LINE ( 'NONE', #207, #19 ) ;
#13 = ORIENTED_EDGE ( 'NONE', *, *, #98, .F. ) ;
#14 = CYLINDRICAL_SURFACE ( 'NONE', #113, 34.49999999999999300 ) ;
#15 = FACE_OUTER_BOUND ( 'NONE', #58, .T. ) ;
#16 = EDGE_LOOP ( 'NONE', ( #50, #31, #9, #28 ) ) ;
#17 = FACE_BOUND ( 'NONE', #34, .T. ) ;
#18 = FACE_OUTER_BOUND ( 'NONE', #16, .T. ) ;
#19 = VECTOR ( 'NONE', #149, 1000.000000000000000 ) ;
#20 = ORIENTED_EDGE ( 'NONE', *, *, #92, .T. ) ;
#21 =( GEOMETRIC_REPRESENTATION_CONTEXT ( 3 ) GLOBAL_UNCERTAINTY_ASSIGNED_CONTEXT ( ( #1 ) ) GLOBAL_UNIT_ASSIGNED_CONTEXT ( ( #133, #132, #131 ) ) REPRESENTATION_CONTEXT ( 'NONE', 'WORKASPACE' ) );
#22 = SHAPE_DEFINITION_REPRESENTATION ( #79, #2 ) ;
#23 = ORIENTED_EDGE ( 'NONE', *, *, #110, .T. ) ;
#24 = ORIENTED_EDGE ( 'NONE', *, *, #105, .F. ) ;
#25 = FACE_OUTER_BOUND ( 'NONE', #37, .T. ) ;
#26 = FACE_OUTER_BOUND ( 'NONE', #74, .T. ) ;
#27 = ORIENTED_EDGE ( 'NONE', *, *, #92, .F. ) ;
#28 = ORIENTED_EDGE ( 'NONE', *, *, #104, .F. ) ;
#29 = EDGE_LOOP ( 'NONE', ( #67, #13 ) ) ;
#30 =( GEOMETRIC_REPRESENTATION_CONTEXT ( 3 ) GLOBAL_UNCERTAINTY_ASSIGNED_CONTEXT ( ( #4 ) ) GLOBAL_UNIT_ASSIGNED_CONTEXT ( ( #175, #176, #177 ) ) REPRESENTATION_CONTEXT ( 'NONE', 'WORKASPACE' ) );
#31 = ORIENTED_EDGE ( 'NONE', *, *, #120, .T. ) ;
#32 = SURFACE_STYLE_FILL_AREA ( #172 ) ;
#33 = COLOUR_RGB ( '',0.7529411764705882200, 0.7529411764705882200, 0.7529411764705882200 ) ;
#34 = EDGE_LOOP ( 'NONE', ( #66, #73 ) ) ;
#35 = CYLINDRICAL_SURFACE ( 'NONE', #115, 30.00000000000000000 ) ;
#36 = EDGE_LOOP ( 'NONE', ( #75, #10, #64, #47 ) ) ;
#37 = EDGE_LOOP ( 'NONE', ( #71, #27, #23, #6 ) ) ;
#38 = FACE_BOUND ( 'NONE', #29, .T. ) ;
#39 = FACE_OUTER_BOUND ( 'NONE', #36, .T. ) ;
#40 = FACE_OUTER_BOUND ( 'NONE', #62, .T. ) ;
#41 = CIRCLE ( 'NONE', #97, 34.49999999999999300 ) ;
#42 = CYLINDRICAL_SURFACE ( 'NONE', #121, 30.00000000000000000 ) ;
#43 = CIRCLE ( 'NONE', #112, 30.00000000000000000 ) ;
#44 = CIRCLE ( 'NONE', #87, 30.00000000000000000 ) ;
#45 = VECTOR ( 'NONE', #155, 1000.000000000000000 ) ;
#46 =( GEOMETRIC_REPRESENTATION_CONTEXT ( 3 ) GLOBAL_UNCERTAINTY_ASSIGNED_CONTEXT ( ( #5 ) ) GLOBAL_UNIT_ASSIGNED_CONTEXT ( ( #140, #139, #138 ) ) REPRESENTATION_CONTEXT ( 'NONE', 'WORKASPACE' ) );
#47 = ORIENTED_EDGE ( 'NONE', *, *, #110, .F. ) ;
#48 = SURFACE_STYLE_FILL_AREA ( #136 ) ;
#49 = CIRCLE ( 'NONE', #100, 30.00000000000000000 ) ;
#50 = ORIENTED_EDGE ( 'NONE', *, *, #91, .T. ) ;
#51 = PRESENTATION_STYLE_ASSIGNMENT (( #134 ) ) ;
#52 = COLOUR_RGB ( '',0.7529411764705882200, 0.7529411764705882200, 0.7529411764705882200 ) ;
#53 = CYLINDRICAL_SURFACE ( 'NONE', #99, 34.49999999999999300 ) ;
#54 = CIRCLE ( 'NONE', #101, 30.00000000000000000 ) ;
#55 = CLOSED_SHELL ( 'NONE', ( #85, #80, #83, #82, #84, #81 ) ) ;
#56 = PRESENTATION_STYLE_ASSIGNMENT (( #174 ) ) ;
#57 = ORIENTED_EDGE ( 'NONE', *, *, #118, .F. ) ;
#58 = EDGE_LOOP ( 'NONE', ( #20, #61 ) ) ;
#59 = CIRCLE ( 'NONE', #88, 34.49999999999999300 ) ;
#60 = LINE ( 'NONE', #213, #45 ) ;
#61 = ORIENTED_EDGE ( 'NONE', *, *, #90, .T. ) ;
#62 = EDGE_LOOP ( 'NONE', ( #65, #24 ) ) ;
#63 = VECTOR ( 'NONE', #158, 1000.000000000000000 ) ;
#64 = ORIENTED_EDGE ( 'NONE', *, *, #105, .T. ) ;
#65 = ORIENTED_EDGE ( 'NONE', *, *, #93, .F. ) ;
#66 = ORIENTED_EDGE ( 'NONE', *, *, #89, .T. ) ;
#67 = ORIENTED_EDGE ( 'NONE', *, *, #91, .F. ) ;
#68 = VECTOR ( 'NONE', #148, 1000.000000000000000 ) ;
#69 = ORIENTED_EDGE ( 'NONE', *, *, #120, .F. ) ;
#70 = ORIENTED_EDGE ( 'NONE', *, *, #104, .T. ) ;
#71 = ORIENTED_EDGE ( 'NONE', *, *, #111, .F. ) ;
#72 = LINE ( 'NONE', #147, #68 ) ;
#73 = ORIENTED_EDGE ( 'NONE', *, *, #118, .T. ) ;
#74 = EDGE_LOOP ( 'NONE', ( #69, #76, #70, #57 ) ) ;
#75 = ORIENTED_EDGE ( 'NONE', *, *, #90, .F. ) ;
#76 = ORIENTED_EDGE ( 'NONE', *, *, #98, .T. ) ;
#77 = PRODUCT ( 'Flachdichtung VD69_60_6300189', 'Flachdichtung VD69_60_6300189', '', ( #125 ) ) ;
#78 = PRODUCT_DEFINITION_CONTEXT ( 'detailed design', #124, 'design' ) ;
#79 = PRODUCT_DEFINITION_SHAPE ( 'NONE', 'NONE',  #108 ) ;
#80 = ADVANCED_FACE ( 'NONE', ( #39 ), #53, .T. ) ;
#81 = ADVANCED_FACE ( 'NONE', ( #26 ), #35, .F. ) ;
#82 = ADVANCED_FACE ( 'NONE', ( #40, #17 ), #185, .F. ) ;
#83 = ADVANCED_FACE ( 'NONE', ( #15, #38 ), #188, .T. ) ;
#84 = ADVANCED_FACE ( 'NONE', ( #25 ), #14, .T. ) ;
#85 = ADVANCED_FACE ( 'NONE', ( #18 ), #42, .F. ) ;
#86 = AXIS2_PLACEMENT_3D ( 'NONE', #183, #189, #190 ) ;
#87 = AXIS2_PLACEMENT_3D ( 'NONE', #191, #196, #198 ) ;
#88 = AXIS2_PLACEMENT_3D ( 'NONE', #146, #151, #152 ) ;
#89 = EDGE_CURVE ( 'NONE', #168, #171, #44, .T. ) ;
#90 = EDGE_CURVE ( 'NONE', #163, #165, #41, .T. ) ;
#91 = EDGE_CURVE ( 'NONE', #161, #170, #43, .T. ) ;
#92 = EDGE_CURVE ( 'NONE', #165, #163, #8, .T. ) ;
#93 = EDGE_CURVE ( 'NONE', #169, #166, #11, .T. ) ;
#94 = STYLED_ITEM ( 'NONE', ( #56 ), #3 ) ;
#95 = PRESENTATION_LAYER_ASSIGNMENT (  '', '', ( #94 ) ) ;
#96 = MECHANICAL_DESIGN_GEOMETRIC_PRESENTATION_REPRESENTATION (  '', ( #94 ), #30 ) ;
#97 = AXIS2_PLACEMENT_3D ( 'NONE', #210, #205, #204 ) ;
#98 = EDGE_CURVE ( 'NONE', #170, #161, #54, .T. ) ;
#99 = AXIS2_PLACEMENT_3D ( 'NONE', #162, #160, #167 ) ;
#100 = AXIS2_PLACEMENT_3D ( 'NONE', #153, #154, #156 ) ;
#101 = AXIS2_PLACEMENT_3D ( 'NONE', #202, #201, #200 ) ;
#102 = PRESENTATION_LAYER_ASSIGNMENT (  '', '', ( #109 ) ) ;
#103 = AXIS2_PLACEMENT_3D ( 'NONE', #212, #211, #197 ) ;
#104 = EDGE_CURVE ( 'NONE', #161, #168, #12, .T. ) ;
#105 = EDGE_CURVE ( 'NONE', #166, #169, #59, .T. ) ;
#106 = MECHANICAL_DESIGN_GEOMETRIC_PRESENTATION_REPRESENTATION (  '', ( #109 ), #21 ) ;
#107 = AXIS2_PLACEMENT_3D ( 'NONE', #130, #129, #128 ) ;
#108 = PRODUCT_DEFINITION ( 'UNKNOWN', '', #117, #78 ) ;
#109 = STYLED_ITEM ( 'NONE', ( #51 ), #2 ) ;
#110 = EDGE_CURVE ( 'NONE', #165, #169, #60, .T. ) ;
#111 = EDGE_CURVE ( 'NONE', #163, #166, #7, .T. ) ;
#112 = AXIS2_PLACEMENT_3D ( 'NONE', #199, #214, #122 ) ;
#113 = AXIS2_PLACEMENT_3D ( 'NONE', #192, #178, #179 ) ;
#114 = AXIS2_PLACEMENT_3D ( 'NONE', #208, #203, #206 ) ;
#115 = AXIS2_PLACEMENT_3D ( 'NONE', #182, #181, #180 ) ;
#116 = AXIS2_PLACEMENT_3D ( 'NONE', #184, #186, #187 ) ;
#117 = PRODUCT_DEFINITION_FORMATION_WITH_SPECIFIED_SOURCE ( 'ANY', '', #77, .NOT_KNOWN. ) ;
#118 = EDGE_CURVE ( 'NONE', #171, #168, #49, .T. ) ;
#119 = PRODUCT_RELATED_PRODUCT_CATEGORY ( 'part', '', ( #77 ) ) ;
#120 = EDGE_CURVE ( 'NONE', #170, #171, #72, .T. ) ;
#121 = AXIS2_PLACEMENT_3D ( 'NONE', #195, #194, #193 ) ;
#122 = DIRECTION ( 'NONE',  ( 0.0000000000000000000, 0.0000000000000000000, 1.000000000000000000 ) ) ;
#123 = APPLICATION_PROTOCOL_DEFINITION ( 'draft international standard', 'automotive_design', 1998, #124 ) ;
#124 = APPLICATION_CONTEXT ( 'automotive_design' ) ;
#125 = PRODUCT_CONTEXT ( 'NONE', #127, 'mechanical' ) ;
#126 = APPLICATION_PROTOCOL_DEFINITION ( 'draft international standard', 'automotive_design', 1998, #127 ) ;
#127 = APPLICATION_CONTEXT ( 'automotive_design' ) ;
#128 = DIRECTION ( 'NONE',  ( 1.000000000000000000, 0.0000000000000000000, 0.0000000000000000000 ) ) ;
#129 = DIRECTION ( 'NONE',  ( 0.0000000000000000000, 0.0000000000000000000, 1.000000000000000000 ) ) ;
#130 = CARTESIAN_POINT ( 'NONE',  ( 0.0000000000000000000, 0.0000000000000000000, 0.0000000000000000000 ) ) ;
#131 =( NAMED_UNIT ( * ) SI_UNIT ( $, .STERADIAN. ) SOLID_ANGLE_UNIT ( ) );
#132 =( NAMED_UNIT ( * ) PLANE_ANGLE_UNIT ( ) SI_UNIT ( $, .RADIAN. ) );
#133 =( LENGTH_UNIT ( ) NAMED_UNIT ( * ) SI_UNIT ( .MILLI., .METRE. ) );
#134 = SURFACE_STYLE_USAGE ( .BOTH. , #135 ) ;
#135 = SURFACE_SIDE_STYLE ('',( #48 ) ) ;
#136 = FILL_AREA_STYLE ('',( #137 ) ) ;
#137 = FILL_AREA_STYLE_COLOUR ( '', #52 ) ;
#138 =( NAMED_UNIT ( * ) SI_UNIT ( $, .STERADIAN. ) SOLID_ANGLE_UNIT ( ) );
#139 =( NAMED_UNIT ( * ) PLANE_ANGLE_UNIT ( ) SI_UNIT ( $, .RADIAN. ) );
#140 =( LENGTH_UNIT ( ) NAMED_UNIT ( * ) SI_UNIT ( .MILLI., .METRE. ) );
#141 = CARTESIAN_POINT ( 'NONE',  ( 3.673940397442059200E-015, 0.0000000000000000000, 30.00000000000000000 ) ) ;
#142 = CARTESIAN_POINT ( 'NONE',  ( 0.0000000000000000000, 0.0000000000000000000, -34.49999999999999300 ) ) ;
#143 = CARTESIAN_POINT ( 'NONE',  ( 0.0000000000000000000, 0.0000000000000000000, -30.00000000000000000 ) ) ;
#144 = CARTESIAN_POINT ( 'NONE',  ( 4.225031457058367300E-015, 0.0000000000000000000, 34.49999999999999300 ) ) ;
#145 = CARTESIAN_POINT ( 'NONE',  ( 4.225031457058367300E-015, 3.000000000000000000, 34.49999999999999300 ) ) ;
#146 = CARTESIAN_POINT ( 'NONE',  ( 0.0000000000000000000, 0.0000000000000000000, 0.0000000000000000000 ) ) ;
#147 = CARTESIAN_POINT ( 'NONE',  ( 3.673940397442059200E-015, 3.000000000000000000, 30.00000000000000000 ) ) ;
#148 = DIRECTION ( 'NONE',  ( -0.0000000000000000000, -1.000000000000000000, -0.0000000000000000000 ) ) ;
#149 = DIRECTION ( 'NONE',  ( -0.0000000000000000000, -1.000000000000000000, -0.0000000000000000000 ) ) ;
#150 = CARTESIAN_POINT ( 'NONE',  ( 3.673940397442059200E-015, 3.000000000000000000, 30.00000000000000000 ) ) ;
#151 = DIRECTION ( 'NONE',  ( 0.0000000000000000000, 1.000000000000000000, 0.0000000000000000000 ) ) ;
#152 = DIRECTION ( 'NONE',  ( 0.0000000000000000000, 0.0000000000000000000, 1.000000000000000000 ) ) ;
#153 = CARTESIAN_POINT ( 'NONE',  ( 0.0000000000000000000, 0.0000000000000000000, 0.0000000000000000000 ) ) ;
#154 = DIRECTION ( 'NONE',  ( 0.0000000000000000000, 1.000000000000000000, 0.0000000000000000000 ) ) ;
#155 = DIRECTION ( 'NONE',  ( -0.0000000000000000000, -1.000000000000000000, -0.0000000000000000000 ) ) ;
#156 = DIRECTION ( 'NONE',  ( 0.0000000000000000000, 0.0000000000000000000, 1.000000000000000000 ) ) ;
#157 = CARTESIAN_POINT ( 'NONE',  ( 4.225031457058367300E-015, 3.000000000000000000, 34.49999999999999300 ) ) ;
#158 = DIRECTION ( 'NONE',  ( -0.0000000000000000000, -1.000000000000000000, -0.0000000000000000000 ) ) ;
#159 = CARTESIAN_POINT ( 'NONE',  ( 0.0000000000000000000, 3.000000000000000000, -30.00000000000000000 ) ) ;
#160 = DIRECTION ( 'NONE',  ( -0.0000000000000000000, -1.000000000000000000, -0.0000000000000000000 ) ) ;
#161 = VERTEX_POINT ( 'NONE', #159 ) ;
#162 = CARTESIAN_POINT ( 'NONE',  ( 0.0000000000000000000, 3.000000000000000000, 0.0000000000000000000 ) ) ;
#163 = VERTEX_POINT ( 'NONE', #145 ) ;
#164 = FILL_AREA_STYLE_COLOUR ( '', #33 ) ;
#165 = VERTEX_POINT ( 'NONE', #209 ) ;
#166 = VERTEX_POINT ( 'NONE', #144 ) ;
#167 = DIRECTION ( 'NONE',  ( 0.0000000000000000000, 0.0000000000000000000, -1.000000000000000000 ) ) ;
#168 = VERTEX_POINT ( 'NONE', #143 ) ;
#169 = VERTEX_POINT ( 'NONE', #142 ) ;
#170 = VERTEX_POINT ( 'NONE', #150 ) ;
#171 = VERTEX_POINT ( 'NONE', #141 ) ;
#172 = FILL_AREA_STYLE ('',( #164 ) ) ;
#173 = SURFACE_SIDE_STYLE ('',( #32 ) ) ;
#174 = SURFACE_STYLE_USAGE ( .BOTH. , #173 ) ;
#175 =( LENGTH_UNIT ( ) NAMED_UNIT ( * ) SI_UNIT ( .MILLI., .METRE. ) );
#176 =( NAMED_UNIT ( * ) PLANE_ANGLE_UNIT ( ) SI_UNIT ( $, .RADIAN. ) );
#177 =( NAMED_UNIT ( * ) SI_UNIT ( $, .STERADIAN. ) SOLID_ANGLE_UNIT ( ) );
#178 = DIRECTION ( 'NONE',  ( -0.0000000000000000000, -1.000000000000000000, -0.0000000000000000000 ) ) ;
#179 = DIRECTION ( 'NONE',  ( 0.0000000000000000000, 0.0000000000000000000, -1.000000000000000000 ) ) ;
#180 = DIRECTION ( 'NONE',  ( 0.0000000000000000000, 0.0000000000000000000, -1.000000000000000000 ) ) ;
#181 = DIRECTION ( 'NONE',  ( -0.0000000000000000000, -1.000000000000000000, -0.0000000000000000000 ) ) ;
#182 = CARTESIAN_POINT ( 'NONE',  ( 0.0000000000000000000, 3.000000000000000000, 0.0000000000000000000 ) ) ;
#183 = CARTESIAN_POINT ( 'NONE',  ( 0.0000000000000000000, 3.000000000000000000, 0.0000000000000000000 ) ) ;
#184 = CARTESIAN_POINT ( 'NONE',  ( 0.0000000000000000000, 0.0000000000000000000, 0.0000000000000000000 ) ) ;
#185 = PLANE ( 'NONE',  #116 ) ;
#186 = DIRECTION ( 'NONE',  ( 0.0000000000000000000, 1.000000000000000000, 0.0000000000000000000 ) ) ;
#187 = DIRECTION ( 'NONE',  ( 0.0000000000000000000, -0.0000000000000000000, 1.000000000000000000 ) ) ;
#188 = PLANE ( 'NONE',  #86 ) ;
#189 = DIRECTION ( 'NONE',  ( 0.0000000000000000000, 1.000000000000000000, 0.0000000000000000000 ) ) ;
#190 = DIRECTION ( 'NONE',  ( 0.0000000000000000000, -0.0000000000000000000, 1.000000000000000000 ) ) ;
#191 = CARTESIAN_POINT ( 'NONE',  ( 0.0000000000000000000, 0.0000000000000000000, 0.0000000000000000000 ) ) ;
#192 = CARTESIAN_POINT ( 'NONE',  ( 0.0000000000000000000, 3.000000000000000000, 0.0000000000000000000 ) ) ;
#193 = DIRECTION ( 'NONE',  ( 0.0000000000000000000, 0.0000000000000000000, -1.000000000000000000 ) ) ;
#194 = DIRECTION ( 'NONE',  ( -0.0000000000000000000, -1.000000000000000000, -0.0000000000000000000 ) ) ;
#195 = CARTESIAN_POINT ( 'NONE',  ( 0.0000000000000000000, 3.000000000000000000, 0.0000000000000000000 ) ) ;
#196 = DIRECTION ( 'NONE',  ( 0.0000000000000000000, 1.000000000000000000, 0.0000000000000000000 ) ) ;
#197 = DIRECTION ( 'NONE',  ( 0.0000000000000000000, 0.0000000000000000000, 1.000000000000000000 ) ) ;
#198 = DIRECTION ( 'NONE',  ( 0.0000000000000000000, 0.0000000000000000000, 1.000000000000000000 ) ) ;
#199 = CARTESIAN_POINT ( 'NONE',  ( 0.0000000000000000000, 3.000000000000000000, 0.0000000000000000000 ) ) ;
#200 = DIRECTION ( 'NONE',  ( 0.0000000000000000000, 0.0000000000000000000, 1.000000000000000000 ) ) ;
#201 = DIRECTION ( 'NONE',  ( 0.0000000000000000000, 1.000000000000000000, 0.0000000000000000000 ) ) ;
#202 = CARTESIAN_POINT ( 'NONE',  ( 0.0000000000000000000, 3.000000000000000000, 0.0000000000000000000 ) ) ;
#203 = DIRECTION ( 'NONE',  ( 0.0000000000000000000, 1.000000000000000000, 0.0000000000000000000 ) ) ;
#204 = DIRECTION ( 'NONE',  ( 0.0000000000000000000, 0.0000000000000000000, 1.000000000000000000 ) ) ;
#205 = DIRECTION ( 'NONE',  ( 0.0000000000000000000, 1.000000000000000000, 0.0000000000000000000 ) ) ;
#206 = DIRECTION ( 'NONE',  ( 0.0000000000000000000, 0.0000000000000000000, 1.000000000000000000 ) ) ;
#207 = CARTESIAN_POINT ( 'NONE',  ( 0.0000000000000000000, 3.000000000000000000, -30.00000000000000000 ) ) ;
#208 = CARTESIAN_POINT ( 'NONE',  ( 0.0000000000000000000, 3.000000000000000000, 0.0000000000000000000 ) ) ;
#209 = CARTESIAN_POINT ( 'NONE',  ( 0.0000000000000000000, 3.000000000000000000, -34.49999999999999300 ) ) ;
#210 = CARTESIAN_POINT ( 'NONE',  ( 0.0000000000000000000, 3.000000000000000000, 0.0000000000000000000 ) ) ;
#211 = DIRECTION ( 'NONE',  ( 0.0000000000000000000, 1.000000000000000000, 0.0000000000000000000 ) ) ;
#212 = CARTESIAN_POINT ( 'NONE',  ( 0.0000000000000000000, 0.0000000000000000000, 0.0000000000000000000 ) ) ;
#213 = CARTESIAN_POINT ( 'NONE',  ( 0.0000000000000000000, 3.000000000000000000, -34.49999999999999300 ) ) ;
#214 = DIRECTION ( 'NONE',  ( 0.0000000000000000000, 1.000000000000000000, 0.0000000000000000000 ) ) ;
ENDSEC;
END-ISO-10303-21;
